ISO-10303-21;
HEADER;
FILE_DESCRIPTION (( 'STEP AP214' ),
    '1' );
FILE_NAME ('GCC-414001.STEP',
    '2020-02-15T10:11:25',
    ( 'China' ),
    ( 'Microsoft' ),
    'SwSTEP 2.0',
    'SolidWorks 2018',
    '' );
FILE_SCHEMA (( 'AUTOMOTIVE_DESIGN' ));
ENDSEC;

DATA;
#1 = PRESENTATION_LAYER_ASSIGNMENT (  '', '', ( #49 ) ) ;
#2 = PLANE ( 'NONE',  #56 ) ;
#3 =( LENGTH_UNIT ( ) NAMED_UNIT ( * ) SI_UNIT ( .MILLI., .METRE. ) );
#4 = PRODUCT_DEFINITION ( 'Î´Öª', '', #127, #107 ) ;
#5 = ORIENTED_EDGE ( 'NONE', *, *, #109, .F. ) ;
#6 = DIRECTION ( 'NONE',  ( 0.0000000000000000000, 0.0000000000000000000, 1.000000000000000000 ) ) ;
#7 = DIRECTION ( 'NONE',  ( 1.000000000000000000, 0.0000000000000000000, -0.0000000000000000000 ) ) ;
#8 = UNCERTAINTY_MEASURE_WITH_UNIT (LENGTH_MEASURE( 1.000000000000000082E-05 ), #64, 'distance_accuracy_value', 'NONE');
#9 =( NAMED_UNIT ( * ) SI_UNIT ( $, .STERADIAN. ) SOLID_ANGLE_UNIT ( ) );
#10 = ORIENTED_EDGE ( 'NONE', *, *, #75, .T. ) ;
#11 = FACE_OUTER_BOUND ( 'NONE', #113, .T. ) ;
#12 = VERTEX_POINT ( 'NONE', #106 ) ;
#13 = DIRECTION ( 'NONE',  ( 0.0000000000000000000, 0.0000000000000000000, -1.000000000000000000 ) ) ;
#14 = AXIS2_PLACEMENT_3D ( 'NONE', #121, #6, #154 ) ;
#15 = CARTESIAN_POINT ( 'NONE',  ( 0.0000000000000000000, 0.0000000000000000000, 3.500000000000000000 ) ) ;
#16 = ORIENTED_EDGE ( 'NONE', *, *, #32, .F. ) ;
#17 = ORIENTED_EDGE ( 'NONE', *, *, #234, .T. ) ;
#18 = DIRECTION ( 'NONE',  ( 1.000000000000000000, 0.0000000000000000000, 0.0000000000000000000 ) ) ;
#19 = EDGE_CURVE ( 'NONE', #51, #144, #94, .T. ) ;
#20 = COLOUR_RGB ( '',0.9411764705882352811, 0.9607843137254902244, 0.9686274509803921573 ) ;
#21 = CIRCLE ( 'NONE', #228, 12.39999999999999858 ) ;
#22 = DIRECTION ( 'NONE',  ( -0.7071067811865516806, 8.659560562354984627E-17, 0.7071067811865434649 ) ) ;
#23 = CARTESIAN_POINT ( 'NONE',  ( 0.0000000000000000000, 0.0000000000000000000, 0.2999999999999981570 ) ) ;
#24 = EDGE_LOOP ( 'NONE', ( #5, #112, #10, #143 ) ) ;
#25 = CARTESIAN_POINT ( 'NONE',  ( 0.0000000000000000000, 0.0000000000000000000, 0.0000000000000000000 ) ) ;
#26 = FILL_AREA_STYLE ('',( #139 ) ) ;
#27 = FILL_AREA_STYLE ('',( #174 ) ) ;
#28 = LINE ( 'NONE', #92, #62 ) ;
#29 = DIRECTION ( 'NONE',  ( -1.000000000000000000, 0.0000000000000000000, 0.0000000000000000000 ) ) ;
#30 = AXIS2_PLACEMENT_3D ( 'NONE', #182, #61, #130 ) ;
#31 = CIRCLE ( 'NONE', #175, 12.69999999999999929 ) ;
#32 = EDGE_CURVE ( 'NONE', #90, #12, #79, .T. ) ;
#33 = PRODUCT_DEFINITION_SHAPE ( 'NONE', 'NONE',  #4 ) ;
#34 = SURFACE_STYLE_FILL_AREA ( #27 ) ;
#35 = VERTEX_POINT ( 'NONE', #215 ) ;
#36 = EDGE_CURVE ( 'NONE', #237, #205, #31, .T. ) ;
#37 = ORIENTED_EDGE ( 'NONE', *, *, #47, .T. ) ;
#38 = CARTESIAN_POINT ( 'NONE',  ( 12.69999999999999929, 1.555301434917138433E-15, 3.200000000000008615 ) ) ;
#39 = CARTESIAN_POINT ( 'NONE',  ( 0.0000000000000000000, 0.0000000000000000000, 0.2999999999999981570 ) ) ;
#40 = LINE ( 'NONE', #114, #236 ) ;
#41 = CARTESIAN_POINT ( 'NONE',  ( 0.0000000000000000000, 0.0000000000000000000, 0.2999999999999981570 ) ) ;
#42 = CARTESIAN_POINT ( 'NONE',  ( 12.40000000000000568, 1.518562030942718756E-15, 3.500000000000000000 ) ) ;
#43 = SURFACE_STYLE_USAGE ( .BOTH. , #153 ) ;
#44 = AXIS2_PLACEMENT_3D ( 'NONE', #41, #160, #202 ) ;
#45 =( NAMED_UNIT ( * ) PLANE_ANGLE_UNIT ( ) SI_UNIT ( $, .RADIAN. ) );
#46 = DIRECTION ( 'NONE',  ( 0.0000000000000000000, 0.0000000000000000000, 1.000000000000000000 ) ) ;
#47 = EDGE_CURVE ( 'NONE', #55, #35, #209, .T. ) ;
#48 = CYLINDRICAL_SURFACE ( 'NONE', #84, 12.69999999999999929 ) ;
#49 = STYLED_ITEM ( 'NONE', ( #73 ), #231 ) ;
#50 = SHAPE_DEFINITION_REPRESENTATION ( #33, #93 ) ;
#51 = VERTEX_POINT ( 'NONE', #96 ) ;
#52 = CIRCLE ( 'NONE', #82, 12.69999999999999929 ) ;
#53 = EDGE_LOOP ( 'NONE', ( #149, #16, #190, #203 ) ) ;
#54 = CARTESIAN_POINT ( 'NONE',  ( 12.39999999999999858, 0.0000000000000000000, 0.0000000000000000000 ) ) ;
#55 = VERTEX_POINT ( 'NONE', #235 ) ;
#56 = AXIS2_PLACEMENT_3D ( 'NONE', #223, #183, #116 ) ;
#57 = AXIS2_PLACEMENT_3D ( 'NONE', #138, #171, #225 ) ;
#58 = ADVANCED_FACE ( 'NONE', ( #216 ), #48, .T. ) ;
#59 = FACE_OUTER_BOUND ( 'NONE', #24, .T. ) ;
#60 = DIRECTION ( 'NONE',  ( -1.000000000000000000, 0.0000000000000000000, 0.0000000000000000000 ) ) ;
#61 = DIRECTION ( 'NONE',  ( -0.0000000000000000000, -0.0000000000000000000, 1.000000000000000000 ) ) ;
#62 = VECTOR ( 'NONE', #22, 1000.000000000000000 ) ;
#63 = DIRECTION ( 'NONE',  ( 0.7071067811865516806, 0.0000000000000000000, 0.7071067811865434649 ) ) ;
#64 =( LENGTH_UNIT ( ) NAMED_UNIT ( * ) SI_UNIT ( .MILLI., .METRE. ) );
#65 = PRODUCT ( 'GCC-414001', 'GCC-414001', '', ( #192 ) ) ;
#66 = CARTESIAN_POINT ( 'NONE',  ( 12.69999999999999929, 0.0000000000000000000, 0.2999999999999981570 ) ) ;
#67 = APPLICATION_CONTEXT ( 'automotive_design' ) ;
#68 = COLOUR_RGB ( '',0.9411764705882352811, 0.9607843137254902244, 0.9686274509803921573 ) ;
#69 = ADVANCED_FACE ( 'NONE', ( #11 ), #115, .T. ) ;
#70 = CONICAL_SURFACE ( 'NONE', #44, 12.69999999999999929, 0.7853981633974541632 ) ;
#71 = ORIENTED_EDGE ( 'NONE', *, *, #210, .F. ) ;
#72 = MECHANICAL_DESIGN_GEOMETRIC_PRESENTATION_REPRESENTATION (  '', ( #49 ), #232 ) ;
#73 = PRESENTATION_STYLE_ASSIGNMENT (( #119 ) ) ;
#74 = FACE_OUTER_BOUND ( 'NONE', #158, .T. ) ;
#75 = EDGE_CURVE ( 'NONE', #35, #51, #108, .T. ) ;
#76 = DIRECTION ( 'NONE',  ( -0.0000000000000000000, -0.0000000000000000000, -1.000000000000000000 ) ) ;
#77 = DIRECTION ( 'NONE',  ( 1.000000000000000000, 0.0000000000000000000, 0.0000000000000000000 ) ) ;
#78 = CONICAL_SURFACE ( 'NONE', #170, 12.40000000000000568, 0.7853981633974511656 ) ;
#79 = CIRCLE ( 'NONE', #111, 12.39999999999999858 ) ;
#80 =( GEOMETRIC_REPRESENTATION_CONTEXT ( 3 ) GLOBAL_UNCERTAINTY_ASSIGNED_CONTEXT ( ( #196 ) ) GLOBAL_UNIT_ASSIGNED_CONTEXT ( ( #3, #45, #188 ) ) REPRESENTATION_CONTEXT ( 'NONE', 'WORKASPACE' ) );
#81 =( LENGTH_UNIT ( ) NAMED_UNIT ( * ) SI_UNIT ( .MILLI., .METRE. ) );
#82 = AXIS2_PLACEMENT_3D ( 'NONE', #23, #239, #217 ) ;
#83 = EDGE_CURVE ( 'NONE', #205, #237, #52, .T. ) ;
#84 = AXIS2_PLACEMENT_3D ( 'NONE', #135, #204, #60 ) ;
#85 = PRESENTATION_STYLE_ASSIGNMENT (( #43 ) ) ;
#86 = VECTOR ( 'NONE', #63, 1000.000000000000000 ) ;
#87 = AXIS2_PLACEMENT_3D ( 'NONE', #128, #13, #77 ) ;
#88 = FACE_OUTER_BOUND ( 'NONE', #95, .T. ) ;
#89 = DIRECTION ( 'NONE',  ( -1.000000000000000000, 0.0000000000000000000, 0.0000000000000000000 ) ) ;
#90 = VERTEX_POINT ( 'NONE', #54 ) ;
#91 = DIRECTION ( 'NONE',  ( 1.000000000000000000, 0.0000000000000000000, 0.0000000000000000000 ) ) ;
#92 = CARTESIAN_POINT ( 'NONE',  ( -12.69999999999999929, 1.555301434917138433E-15, 0.2999999999999981570 ) ) ;
#93 = ADVANCED_BREP_SHAPE_REPRESENTATION ( 'GCC-414001', ( #231, #14 ), #80 ) ;
#94 = CIRCLE ( 'NONE', #87, 12.69999999999999929 ) ;
#95 = EDGE_LOOP ( 'NONE', ( #145, #214, #221, #71 ) ) ;
#96 = CARTESIAN_POINT ( 'NONE',  ( -12.69999999999999929, 0.0000000000000000000, 3.200000000000008615 ) ) ;
#97 = DIRECTION ( 'NONE',  ( -0.0000000000000000000, -0.0000000000000000000, -1.000000000000000000 ) ) ;
#98 = AXIS2_PLACEMENT_3D ( 'NONE', #15, #207, #89 ) ;
#99 = CONICAL_SURFACE ( 'NONE', #156, 12.40000000000000568, 0.7853981633974511656 ) ;
#100 = ORIENTED_EDGE ( 'NONE', *, *, #194, .T. ) ;
#101 =( NAMED_UNIT ( * ) PLANE_ANGLE_UNIT ( ) SI_UNIT ( $, .RADIAN. ) );
#102 = ADVANCED_FACE ( 'NONE', ( #74 ), #2, .T. ) ;
#103 = CARTESIAN_POINT ( 'NONE',  ( -12.69999999999999929, 0.0000000000000000000, 0.2999999999999981570 ) ) ;
#104 = VECTOR ( 'NONE', #147, 1000.000000000000000 ) ;
#105 = ORIENTED_EDGE ( 'NONE', *, *, #83, .T. ) ;
#106 = CARTESIAN_POINT ( 'NONE',  ( -12.39999999999999858, 1.536931732929928003E-15, 0.0000000000000000000 ) ) ;
#107 = PRODUCT_DEFINITION_CONTEXT ( 'detailed design', #122, 'design' ) ;
#108 = LINE ( 'NONE', #199, #104 ) ;
#109 = EDGE_CURVE ( 'NONE', #55, #144, #186, .T. ) ;
#110 = CARTESIAN_POINT ( 'NONE',  ( 0.0000000000000000000, 0.0000000000000000000, 3.500000000000000000 ) ) ;
#111 = AXIS2_PLACEMENT_3D ( 'NONE', #146, #76, #150 ) ;
#112 = ORIENTED_EDGE ( 'NONE', *, *, #197, .F. ) ;
#113 = EDGE_LOOP ( 'NONE', ( #152, #198, #133, #193 ) ) ;
#114 = CARTESIAN_POINT ( 'NONE',  ( 12.69999999999999929, 1.555301434917138433E-15, 3.500000000000000000 ) ) ;
#115 = CYLINDRICAL_SURFACE ( 'NONE', #98, 12.69999999999999929 ) ;
#116 = DIRECTION ( 'NONE',  ( 1.000000000000000000, 0.0000000000000000000, -0.0000000000000000000 ) ) ;
#117 = ORIENTED_EDGE ( 'NONE', *, *, #47, .F. ) ;
#118 = EDGE_LOOP ( 'NONE', ( #117, #219, #125, #162 ) ) ;
#119 = SURFACE_STYLE_USAGE ( .BOTH. , #227 ) ;
#120 = EDGE_CURVE ( 'NONE', #144, #237, #40, .T. ) ;
#121 = CARTESIAN_POINT ( 'NONE',  ( 0.0000000000000000000, 0.0000000000000000000, 0.0000000000000000000 ) ) ;
#122 = APPLICATION_CONTEXT ( 'automotive_design' ) ;
#123 = PRODUCT_RELATED_PRODUCT_CATEGORY ( 'part', '', ( #65 ) ) ;
#124 = ADVANCED_FACE ( 'NONE', ( #88 ), #70, .T. ) ;
#125 = ORIENTED_EDGE ( 'NONE', *, *, #19, .F. ) ;
#126 = EDGE_LOOP ( 'NONE', ( #159, #100, #17, #105 ) ) ;
#127 = PRODUCT_DEFINITION_FORMATION_WITH_SPECIFIED_SOURCE ( 'ÈÎºÎ', '', #65, .NOT_KNOWN. ) ;
#128 = CARTESIAN_POINT ( 'NONE',  ( 0.0000000000000000000, 0.0000000000000000000, 3.200000000000008615 ) ) ;
#129 = DIRECTION ( 'NONE',  ( -1.000000000000000000, 0.0000000000000000000, 0.0000000000000000000 ) ) ;
#130 = DIRECTION ( 'NONE',  ( 1.000000000000000000, 0.0000000000000000000, 0.0000000000000000000 ) ) ;
#131 = DIRECTION ( 'NONE',  ( 0.0000000000000000000, 0.0000000000000000000, 1.000000000000000000 ) ) ;
#132 = EDGE_CURVE ( 'NONE', #12, #205, #28, .T. ) ;
#133 = ORIENTED_EDGE ( 'NONE', *, *, #36, .T. ) ;
#134 = ADVANCED_FACE ( 'NONE', ( #229 ), #99, .T. ) ;
#135 = CARTESIAN_POINT ( 'NONE',  ( 0.0000000000000000000, 0.0000000000000000000, 3.500000000000000000 ) ) ;
#136 = VECTOR ( 'NONE', #157, 1000.000000000000000 ) ;
#137 = ADVANCED_FACE ( 'NONE', ( #222 ), #184, .T. ) ;
#138 = CARTESIAN_POINT ( 'NONE',  ( 0.0000000000000000000, 0.0000000000000000000, 3.200000000000008615 ) ) ;
#139 = FILL_AREA_STYLE_COLOUR ( '', #68 ) ;
#140 =( NAMED_UNIT ( * ) SI_UNIT ( $, .STERADIAN. ) SOLID_ANGLE_UNIT ( ) );
#141 = DIRECTION ( 'NONE',  ( 1.000000000000000000, 0.0000000000000000000, 0.0000000000000000000 ) ) ;
#142 = VECTOR ( 'NONE', #240, 1000.000000000000000 ) ;
#143 = ORIENTED_EDGE ( 'NONE', *, *, #194, .F. ) ;
#144 = VERTEX_POINT ( 'NONE', #38 ) ;
#145 = ORIENTED_EDGE ( 'NONE', *, *, #185, .F. ) ;
#146 = CARTESIAN_POINT ( 'NONE',  ( 0.0000000000000000000, 0.0000000000000000000, 0.0000000000000000000 ) ) ;
#147 = DIRECTION ( 'NONE',  ( -0.7071067811865495711, 0.0000000000000000000, -0.7071067811865454633 ) ) ;
#148 = ORIENTED_EDGE ( 'NONE', *, *, #32, .T. ) ;
#149 = ORIENTED_EDGE ( 'NONE', *, *, #132, .F. ) ;
#150 = DIRECTION ( 'NONE',  ( 1.000000000000000000, 0.0000000000000000000, 0.0000000000000000000 ) ) ;
#151 = DIRECTION ( 'NONE',  ( 0.0000000000000000000, 0.0000000000000000000, 1.000000000000000000 ) ) ;
#152 = ORIENTED_EDGE ( 'NONE', *, *, #19, .T. ) ;
#153 = SURFACE_SIDE_STYLE ('',( #201 ) ) ;
#154 = DIRECTION ( 'NONE',  ( 1.000000000000000000, 0.0000000000000000000, 0.0000000000000000000 ) ) ;
#155 = CARTESIAN_POINT ( 'NONE',  ( 12.69999999999999929, 1.555301434917138433E-15, 0.2999999999999981570 ) ) ;
#156 = AXIS2_PLACEMENT_3D ( 'NONE', #166, #187, #129 ) ;
#157 = DIRECTION ( 'NONE',  ( -0.0000000000000000000, -0.0000000000000000000, -1.000000000000000000 ) ) ;
#158 = EDGE_LOOP ( 'NONE', ( #226, #37 ) ) ;
#159 = ORIENTED_EDGE ( 'NONE', *, *, #120, .F. ) ;
#160 = DIRECTION ( 'NONE',  ( -0.0000000000000000000, -0.0000000000000000000, 1.000000000000000000 ) ) ;
#161 = PLANE ( 'NONE',  #206 ) ;
#162 = ORIENTED_EDGE ( 'NONE', *, *, #75, .F. ) ;
#163 = CIRCLE ( 'NONE', #57, 12.69999999999999929 ) ;
#164 = ADVANCED_FACE ( 'NONE', ( #179 ), #161, .F. ) ;
#165 = STYLED_ITEM ( 'NONE', ( #85 ), #93 ) ;
#166 = CARTESIAN_POINT ( 'NONE',  ( 0.0000000000000000000, 0.0000000000000000000, 3.500000000000000000 ) ) ;
#167 = CARTESIAN_POINT ( 'NONE',  ( 0.0000000000000000000, 0.0000000000000000000, 0.0000000000000000000 ) ) ;
#168 = UNCERTAINTY_MEASURE_WITH_UNIT (LENGTH_MEASURE( 1.000000000000000082E-05 ), #81, 'distance_accuracy_value', 'NONE');
#169 = CARTESIAN_POINT ( 'NONE',  ( 0.0000000000000000000, 0.0000000000000000000, 3.500000000000000000 ) ) ;
#170 = AXIS2_PLACEMENT_3D ( 'NONE', #169, #211, #29 ) ;
#171 = DIRECTION ( 'NONE',  ( 0.0000000000000000000, 0.0000000000000000000, -1.000000000000000000 ) ) ;
#172 = DIRECTION ( 'NONE',  ( 1.000000000000000000, 0.0000000000000000000, 0.0000000000000000000 ) ) ;
#173 = APPLICATION_PROTOCOL_DEFINITION ( 'draft international standard', 'automotive_design', 1998, #122 ) ;
#174 = FILL_AREA_STYLE_COLOUR ( '', #20 ) ;
#175 = AXIS2_PLACEMENT_3D ( 'NONE', #39, #181, #91 ) ;
#176 = EDGE_LOOP ( 'NONE', ( #148, #230 ) ) ;
#177 = MECHANICAL_DESIGN_GEOMETRIC_PRESENTATION_REPRESENTATION (  '', ( #165 ), #200 ) ;
#178 = LINE ( 'NONE', #213, #136 ) ;
#179 = FACE_OUTER_BOUND ( 'NONE', #176, .T. ) ;
#180 = CLOSED_SHELL ( 'NONE', ( #134, #124, #69, #58, #102, #164, #137, #212 ) ) ;
#181 = DIRECTION ( 'NONE',  ( -0.0000000000000000000, -0.0000000000000000000, 1.000000000000000000 ) ) ;
#182 = CARTESIAN_POINT ( 'NONE',  ( 0.0000000000000000000, 0.0000000000000000000, 0.2999999999999981570 ) ) ;
#183 = DIRECTION ( 'NONE',  ( 0.0000000000000000000, 0.0000000000000000000, 1.000000000000000000 ) ) ;
#184 = CONICAL_SURFACE ( 'NONE', #30, 12.69999999999999929, 0.7853981633974541632 ) ;
#185 = EDGE_CURVE ( 'NONE', #12, #90, #21, .T. ) ;
#186 = LINE ( 'NONE', #42, #142 ) ;
#187 = DIRECTION ( 'NONE',  ( 0.0000000000000000000, 0.0000000000000000000, -1.000000000000000000 ) ) ;
#188 =( NAMED_UNIT ( * ) SI_UNIT ( $, .STERADIAN. ) SOLID_ANGLE_UNIT ( ) );
#189 =( NAMED_UNIT ( * ) PLANE_ANGLE_UNIT ( ) SI_UNIT ( $, .RADIAN. ) );
#190 = ORIENTED_EDGE ( 'NONE', *, *, #210, .T. ) ;
#191 = APPLICATION_PROTOCOL_DEFINITION ( 'draft international standard', 'automotive_design', 1998, #67 ) ;
#192 = PRODUCT_CONTEXT ( 'NONE', #67, 'mechanical' ) ;
#193 = ORIENTED_EDGE ( 'NONE', *, *, #234, .F. ) ;
#194 = EDGE_CURVE ( 'NONE', #144, #51, #163, .T. ) ;
#195 = AXIS2_PLACEMENT_3D ( 'NONE', #208, #46, #172 ) ;
#196 = UNCERTAINTY_MEASURE_WITH_UNIT (LENGTH_MEASURE( 1.000000000000000082E-05 ), #3, 'distance_accuracy_value', 'NONE');
#197 = EDGE_CURVE ( 'NONE', #35, #55, #233, .T. ) ;
#198 = ORIENTED_EDGE ( 'NONE', *, *, #120, .T. ) ;
#199 = CARTESIAN_POINT ( 'NONE',  ( -12.40000000000000568, 0.0000000000000000000, 3.500000000000000000 ) ) ;
#200 =( GEOMETRIC_REPRESENTATION_CONTEXT ( 3 ) GLOBAL_UNCERTAINTY_ASSIGNED_CONTEXT ( ( #8 ) ) GLOBAL_UNIT_ASSIGNED_CONTEXT ( ( #64, #101, #140 ) ) REPRESENTATION_CONTEXT ( 'NONE', 'WORKASPACE' ) );
#201 = SURFACE_STYLE_FILL_AREA ( #26 ) ;
#202 = DIRECTION ( 'NONE',  ( 1.000000000000000000, 0.0000000000000000000, 0.0000000000000000000 ) ) ;
#203 = ORIENTED_EDGE ( 'NONE', *, *, #83, .F. ) ;
#204 = DIRECTION ( 'NONE',  ( -0.0000000000000000000, -0.0000000000000000000, -1.000000000000000000 ) ) ;
#205 = VERTEX_POINT ( 'NONE', #103 ) ;
#206 = AXIS2_PLACEMENT_3D ( 'NONE', #167, #151, #7 ) ;
#207 = DIRECTION ( 'NONE',  ( -0.0000000000000000000, -0.0000000000000000000, -1.000000000000000000 ) ) ;
#208 = CARTESIAN_POINT ( 'NONE',  ( 0.0000000000000000000, 0.0000000000000000000, 3.500000000000000000 ) ) ;
#209 = CIRCLE ( 'NONE', #224, 12.40000000000000568 ) ;
#210 = EDGE_CURVE ( 'NONE', #90, #237, #218, .T. ) ;
#211 = DIRECTION ( 'NONE',  ( 0.0000000000000000000, 0.0000000000000000000, -1.000000000000000000 ) ) ;
#212 = ADVANCED_FACE ( 'NONE', ( #59 ), #78, .T. ) ;
#213 = CARTESIAN_POINT ( 'NONE',  ( -12.69999999999999929, 0.0000000000000000000, 3.500000000000000000 ) ) ;
#214 = ORIENTED_EDGE ( 'NONE', *, *, #132, .T. ) ;
#215 = CARTESIAN_POINT ( 'NONE',  ( -12.40000000000000568, 0.0000000000000000000, 3.500000000000000000 ) ) ;
#216 = FACE_OUTER_BOUND ( 'NONE', #126, .T. ) ;
#217 = DIRECTION ( 'NONE',  ( 1.000000000000000000, 0.0000000000000000000, 0.0000000000000000000 ) ) ;
#218 = LINE ( 'NONE', #66, #86 ) ;
#219 = ORIENTED_EDGE ( 'NONE', *, *, #109, .T. ) ;
#220 = DIRECTION ( 'NONE',  ( -0.0000000000000000000, -0.0000000000000000000, -1.000000000000000000 ) ) ;
#221 = ORIENTED_EDGE ( 'NONE', *, *, #36, .F. ) ;
#222 = FACE_OUTER_BOUND ( 'NONE', #53, .T. ) ;
#223 = CARTESIAN_POINT ( 'NONE',  ( 0.0000000000000000000, 0.0000000000000000000, 3.500000000000000000 ) ) ;
#224 = AXIS2_PLACEMENT_3D ( 'NONE', #110, #131, #18 ) ;
#225 = DIRECTION ( 'NONE',  ( 1.000000000000000000, 0.0000000000000000000, 0.0000000000000000000 ) ) ;
#226 = ORIENTED_EDGE ( 'NONE', *, *, #197, .T. ) ;
#227 = SURFACE_SIDE_STYLE ('',( #34 ) ) ;
#228 = AXIS2_PLACEMENT_3D ( 'NONE', #25, #97, #141 ) ;
#229 = FACE_OUTER_BOUND ( 'NONE', #118, .T. ) ;
#230 = ORIENTED_EDGE ( 'NONE', *, *, #185, .T. ) ;
#231 = MANIFOLD_SOLID_BREP ( 'µ¹½Ç1', #180 ) ;
#232 =( GEOMETRIC_REPRESENTATION_CONTEXT ( 3 ) GLOBAL_UNCERTAINTY_ASSIGNED_CONTEXT ( ( #168 ) ) GLOBAL_UNIT_ASSIGNED_CONTEXT ( ( #81, #189, #9 ) ) REPRESENTATION_CONTEXT ( 'NONE', 'WORKASPACE' ) );
#233 = CIRCLE ( 'NONE', #195, 12.40000000000000568 ) ;
#234 = EDGE_CURVE ( 'NONE', #51, #205, #178, .T. ) ;
#235 = CARTESIAN_POINT ( 'NONE',  ( 12.40000000000000568, 1.536931732929928594E-15, 3.500000000000000000 ) ) ;
#236 = VECTOR ( 'NONE', #220, 1000.000000000000000 ) ;
#237 = VERTEX_POINT ( 'NONE', #155 ) ;
#238 = PRESENTATION_LAYER_ASSIGNMENT (  '', '', ( #165 ) ) ;
#239 = DIRECTION ( 'NONE',  ( -0.0000000000000000000, -0.0000000000000000000, 1.000000000000000000 ) ) ;
#240 = DIRECTION ( 'NONE',  ( 0.7071067811865495711, 8.659560562354957510E-17, -0.7071067811865454633 ) ) ;
ENDSEC;
END-ISO-10303-21;
